Creedence Online recommends:
Creedence Clearwater Revival CCR Band Logo Adjustable Baseball Caps Unisex Snapback Embroidery

Creedence Clearwater Revival
adjustable baseball cap

Creedence Tablatures (Tabs): Ninety-Nine And A Half (Won't Do)

Tabber : Stef Vanstiphout (info@vanstiphoutdesign.com)

                                         
e-------------------------|
b----3-----3-----3-----3--|
g-------------------------|
d-------------------------|
a-------------------------|
E-0-----0-----0-----0-----|

                 
[G] [Eb7] [G] [A7]
[D7-D#7-E7]

[E7] I got to have all your [A7]love, night and [E7] day. [A7]
[E7]Not just a little [A7] part, but all of your [E7] heart, sugar. [A7]

Ninety-[G]nine and a [A7]half just [E7]won't do.
Oh, [A7] no, no, just won't [E7]get it.

Don't be led in the wrong direction.
To start this thing off right, a man needs a little love and affection,
Yes he do, now.

Ninety-[G]nine and a [A7]half just [E7]won't do.
Oh, [A7] no, no, just won't [E7]get it. All right.

e-------------------------|
b-------------------------|
g----7-6--------7-6-------|
d---------7-6--------7-6--| Lookie here,
a-------------------------|
E----5-5--0-0---5-5--0-0--|

We got to bring it all down, start gettin' it right.
We got to stop this messin' around, and keep the thing up tight,
Yes we do, now.

Ninety-[G]nine and a [A7]half just [E7]won't do.
Oh, [A7] no, no, just won't [E7]get it. All right.

triplet intermezzo
e-------------------------...|
b----3-----3-----3-----3--...|
g-------------------------...|
d-------------------------...|
a-------------------------...|
E-0-----0-----0-----0-----...|

All right, sugar.
Got to have a hundred,
Got to have a hundred.

[E7]
e-0------------|
b-5------------|
g-7------------|
d-6------------|
a-7------------|
E-0------------|
[E7 - E7 - E7 ...

All right.
Ooh, I must do, I must do,
I must do now.

SOLO ...  E7 - E7]

Oh! Got to have a hundred!
Got to have a hundred!
Oh! Got to have a hu-hu-hu-hu-hu-hundred, too right.
Got to have a hundred, now. Oh!

[E] [D] [A] [G] [E7])
Home | History | All-In-One | Photo Gallery | Charts | Polls
Shop | Forum | Links | Feedback | Privacy Policy  

© 1998-2017. Creedence Online ver. 5.5