Creedence Online recommends:
Creedence Clearwater Revival CCR Band Logo Adjustable Baseball Caps Unisex Snapback Embroidery

Creedence Clearwater Revival
adjustable baseball cap

Creedence Tablatures (Tabs): Down On The Corner

Tabber : whc2993@ritvax.isc.rit.edu


Riff 1
--------------------|--------------------|
--------------------|--------------------|
--------------------|--------------------|
--------------------|--------------------|
--3--0-----3--3--0--|--------2--3--3-----|
--------3-----------|--3--3--------------|

Riff 2
--------------------|--------------------|
--------------------|--------------------|
--------------------|-----------0--0-----|
--3--0-----3--3--0--|--------2-----------|
--------3-----------|--3--3--------------|
--------------------|--------------------|

Intro:

| Riff 1      | Riff 1     | Riff 2      | Riff 1    |

(riffs 1 and 2 continue through verses along with rhythm guitar)

C                     G                C
Early in the evenin' just about supper time,
                               G              C
Over by the courthouse they're starting to unwind.
F                       C
Four kids on the corner trying to bring you up.
                              G               C
Willy picks a tune out and he blows it on the harp.

CHORUS:
F           C       G          C
Down On The Corner, out in the street,
              F            C             
Willy and the Poorboys are playin'
          G              C
Bring a nickel; tap your feet.


C                              G                  C 
Rooster hits the washboard and people just got to smile,
                                G           C
Blinky, thumps the gut bass and solos for a while.
F                             C
Poorboy twangs the rhythm out on his kalamazoo.
                            G             C
Willy goes into a dance and doubles on kazoo.

CHORUS

CHORUS


C                       G              C
You don't need a penny just to hang around,
                                       G             C
But if you've got a nickel, won't you lay your money down?
F                  C
Over on the corner there's a happy noise.
                                G              C
People come from all around to watch the magic boy.

CHORUS

CHORUS

repeat chorus and fade...)
Home | History | All-In-One | Photo Gallery | Charts | Polls
Shop | Forum | Links | Feedback | Privacy Policy  

© 1998-2017. Creedence Online ver. 5.5