Creedence Online recommends:
Creedence Clearwater Revival CCR Band Logo Adjustable Baseball Caps Unisex Snapback Embroidery

Creedence Clearwater Revival
adjustable baseball cap

Creedence Tablatures (Tabs): (Wish I Could) Hideaway

Tabber : Stef Vanstiphout (info@vanstiphoutdesign.com)


intro:
e------------------------------------------------------------------|
b--11h10--11------10h11--10------10----------10--8h7--8---------8--|
g-------------12-------------12------10--12--------------8--10-----|
d------------------------------------------------------------------|
a------------------------------------------------------------------|
E------------------------------------------------------------------|

e-----------------------------|
b--10-10-10-10--11-11-11-11---|
g--11-11-11-11--12-12-12-12---| etc. (slow down naturally)
d--12-12-12-12--12-12-12-12---|
a-----------------------------|
E--10-10-10-10--10-10-10-10---|


1.
[Gm]Howdy, friend, [F]beggin' your pardon, 
[C]Is there somethin' on your [G]mind? 
[Gm]You've gone and sold [F]all your belongings, 
[C]Is that something in your [G]eye? 

A.
Well, I [Bm]know you really [Am]never 
Liked the [G]way it all goes [C]down[Bm] 
Go on, [D]Hidea-[G]way. 

1.
What's that you say? 
We're all bound for the graveyard; 
Oooh, I wish you well. 
Think it's gonna rain, 
Oh, what's the diff'rence, 
Is there some way I can help? 

B.
'Cause you [Bm]know, I'm gonna [Am]miss you 
When you're [G]gone, oh, [C]Lord, [Bm]
Wish I Could [D]Hide-a-[G]way [G7] [C]
Hold [Bm]on, [Em]give your[D]self a [A]chance, [C] 
I can hear the leavin' [G]train. 

1.
All aboard! Goodbye, goodbye, goodbye! 
Oooh, I wish you well. 
See you soon, maybe tomorrow. 
You can never tell; 

A.
"Cause you know, I'm gonna miss you 
When you're gone, oh, 
Wish I could Hideaway 

C. [C] [G] etc.
Hideaway, hideaway, hideaway, hideaway. 
Hideaway, hideaway, 
Hideaway, hideaway.)
Home | History | All-In-One | Photo Gallery | Charts | Polls
Shop | Forum | Links | Feedback | Privacy Policy  

© 1998-2017. Creedence Online ver. 5.5